  0
SECTION
  2
HEADER
  9
$ACADVER
  1
AC1015
  9
$ACADMAINTVER
 70
     6
  9
$DWGCODEPAGE
  3
ANSI_1254
  9
$INSBASE
 10
0.0
 20
0.0
 30
0.0
  9
$EXTMIN
 10
0.0
 20
0.0
 30
0.0
  9
$EXTMAX
 10
279.4
 20
215.9
 30
0.0
  9
$LIMMIN
 10
0.0
 20
0.0
  9
$LIMMAX
 10
279.4
 20
215.9
  9
$ORTHOMODE
 70
     0
  9
$REGENMODE
 70
     1
  9
$FILLMODE
 70
     1
  9
$QTEXTMODE
 70
     0
  9
$MIRRTEXT
 70
     1
  9
$LTSCALE
 40
1.0
  9
$ATTMODE
 70
     1
  9
$TEXTSIZE
 40
3.5
  9
$TRACEWID
 40
1.0
  9
$TEXTSTYLE
  7
Standard
  9
$CLAYER
  8
0
  9
$CELTYPE
  6
ByLayer
  9
$CECOLOR
 62
   256
  9
$CELTSCALE
 40
1.0
  9
$DISPSILH
 70
     0
  9
$DIMSCALE
 40
1.0
  9
$DIMASZ
 40
3.5
  9
$DIMEXO
 40
1.0
  9
$DIMDLI
 40
3.75
  9
$DIMRND
 40
0.0
  9
$DIMDLE
 40
0.0
  9
$DIMEXE
 40
1.0
  9
$DIMTP
 40
0.0
  9
$DIMTM
 40
0.0
  9
$DIMTXT
 40
3.5
  9
$DIMCEN
 40
2.5
  9
$DIMTSZ
 40
0.0
  9
$DIMTOL
 70
     0
  9
$DIMLIM
 70
     0
  9
$DIMTIH
 70
     1
  9
$DIMTOH
 70
     1
  9
$DIMSE1
 70
     0
  9
$DIMSE2
 70
     0
  9
$DIMTAD
 70
     1
  9
$DIMZIN
 70
     0
  9
$DIMBLK
  1

  9
$DIMASO
 70
     1
  9
$DIMSHO
 70
     1
  9
$DIMPOST
  1

  9
$DIMAPOST
  1

  9
$DIMALT
 70
     0
  9
$DIMALTD
 70
     3
  9
$DIMALTF
 40
0.0393700787
  9
$DIMLFAC
 40
1.0
  9
$DIMTOFL
 70
     1
  9
$DIMTVP
 40
0.0
  9
$DIMTIX
 70
     0
  9
$DIMSOXD
 70
     0
  9
$DIMSAH
 70
     0
  9
$DIMBLK1
  1

  9
$DIMBLK2
  1

  9
$DIMSTYLE
  2
ISO-25
  9
$DIMCLRD
 70
     0
  9
$DIMCLRE
 70
     0
  9
$DIMCLRT
 70
     0
  9
$DIMTFAC
 40
1.0
  9
$DIMGAP
 40
1.524
  9
$DIMJUST
 70
     0
  9
$DIMSD1
 70
     0
  9
$DIMSD2
 70
     0
  9
$DIMTOLJ
 70
     0
  9
$DIMTZIN
 70
     0
  9
$DIMALTZ
 70
     0
  9
$DIMALTTZ
 70
     0
  9
$DIMUPT
 70
     0
  9
$DIMDEC
 70
     2
  9
$DIMTDEC
 70
     2
  9
$DIMALTU
 70
     2
  9
$DIMALTTD
 70
     3
  9
$DIMTXSTY
  7
Standard
  9
$DIMAUNIT
 70
     0
  9
$DIMADEC
 70
     2
  9
$DIMALTRND
 40
0.0
  9
$DIMAZIN
 70
     0
  9
$DIMDSEP
 70
    44
  9
$DIMATFIT
 70
     3
  9
$DIMFRAC
 70
     0
  9
$DIMLDRBLK
  1

  9
$DIMLUNIT
 70
     2
  9
$DIMLWD
 70
    -2
  9
$DIMLWE
 70
    -2
  9
$DIMTMOVE
 70
     0
  9
$LUNITS
 70
     2
  9
$LUPREC
 70
     2
  9
$SKETCHINC
 40
1.0
  9
$FILLETRAD
 40
10.0
  9
$AUNITS
 70
     0
  9
$AUPREC
 70
     2
  9
$MENU
  1
.
  9
$ELEVATION
 40
0.0
  9
$PELEVATION
 40
0.0
  9
$THICKNESS
 40
0.0
  9
$LIMCHECK
 70
     0
  9
$CHAMFERA
 40
0.0
  9
$CHAMFERB
 40
0.0
  9
$CHAMFERC
 40
0.0
  9
$CHAMFERD
 40
0.0
  9
$SKPOLY
 70
     0
  9
$TDCREATE
 40
2460682.519589016
  9
$TDUCREATE
 40
2460682.394589016
  9
$TDUPDATE
 40
2460682.519589178
  9
$TDUUPDATE
 40
2460682.394589178
  9
$TDINDWG
 40
0.0000000116
  9
$TDUSRTIMER
 40
0.0000000116
  9
$USRTIMER
 70
     1
  9
$ANGBASE
 50
0.0
  9
$ANGDIR
 70
     0
  9
$PDMODE
 70
     0
  9
$PDSIZE
 40
-1.0
  9
$PLINEWID
 40
0.0
  9
$SPLFRAME
 70
     0
  9
$SPLINETYPE
 70
     6
  9
$SPLINESEGS
 70
     8
  9
$HANDSEED
  5
BF
  9
$SURFTAB1
 70
     6
  9
$SURFTAB2
 70
     6
  9
$SURFTYPE
 70
     6
  9
$SURFU
 70
     6
  9
$SURFV
 70
     6
  9
$UCSBASE
  2

  9
$UCSNAME
  2

  9
$UCSORG
 10
0.0
 20
0.0
 30
0.0
  9
$UCSXDIR
 10
1.0
 20
0.0
 30
0.0
  9
$UCSYDIR
 10
0.0
 20
1.0
 30
0.0
  9
$UCSORTHOREF
  2

  9
$UCSORTHOVIEW
 70
     0
  9
$UCSORGTOP
 10
0.0
 20
0.0
 30
0.0
  9
$UCSORGBOTTOM
 10
0.0
 20
0.0
 30
0.0
  9
$UCSORGLEFT
 10
0.0
 20
0.0
 30
0.0
  9
$UCSORGRIGHT
 10
0.0
 20
0.0
 30
0.0
  9
$UCSORGFRONT
 10
0.0
 20
0.0
 30
0.0
  9
$UCSORGBACK
 10
0.0
 20
0.0
 30
0.0
  9
$PUCSBASE
  2

  9
$PUCSNAME
  2

  9
$PUCSORG
 10
0.0
 20
0.0
 30
0.0
  9
$PUCSXDIR
 10
1.0
 20
0.0
 30
0.0
  9
$PUCSYDIR
 10
0.0
 20
1.0
 30
0.0
  9
$PUCSORTHOREF
  2

  9
$PUCSORTHOVIEW
 70
     0
  9
$PUCSORGTOP
 10
0.0
 20
0.0
 30
0.0
  9
$PUCSORGBOTTOM
 10
0.0
 20
0.0
 30
0.0
  9
$PUCSORGLEFT
 10
0.0
 20
0.0
 30
0.0
  9
$PUCSORGRIGHT
 10
0.0
 20
0.0
 30
0.0
  9
$PUCSORGFRONT
 10
0.0
 20
0.0
 30
0.0
  9
$PUCSORGBACK
 10
0.0
 20
0.0
 30
0.0
  9
$USERI1
 70
     0
  9
$USERI2
 70
     0
  9
$USERI3
 70
     0
  9
$USERI4
 70
     0
  9
$USERI5
 70
     0
  9
$USERR1
 40
0.0
  9
$USERR2
 40
0.0
  9
$USERR3
 40
0.0
  9
$USERR4
 40
0.0
  9
$USERR5
 40
0.0
  9
$WORLDVIEW
 70
     1
  9
$SHADEDGE
 70
     3
  9
$SHADEDIF
 70
    70
  9
$TILEMODE
 70
     1
  9
$MAXACTVP
 70
    64
  9
$PINSBASE
 10
0.0
 20
0.0
 30
0.0
  9
$PLIMCHECK
 70
     0
  9
$PEXTMIN
 10
1.0000000000E+20
 20
1.0000000000E+20
 30
1.0000000000E+20
  9
$PEXTMAX
 10
-1.0000000000E+20
 20
-1.0000000000E+20
 30
-1.0000000000E+20
  9
$PLIMMIN
 10
0.0
 20
0.0
  9
$PLIMMAX
 10
420.0
 20
297.0
  9
$UNITMODE
 70
     0
  9
$VISRETAIN
 70
     1
  9
$PLINEGEN
 70
     0
  9
$PSLTSCALE
 70
     1
  9
$TREEDEPTH
 70
  3020
  9
$CMLSTYLE
  2
Standard
  9
$CMLJUST
 70
     0
  9
$CMLSCALE
 40
20.0
  9
$PROXYGRAPHICS
 70
     1
  9
$MEASUREMENT
 70
     1
  9
$CELWEIGHT
370
    -1
  9
$ENDCAPS
280
     0
  9
$JOINSTYLE
280
     0
  9
$LWDISPLAY
290
     1
  9
$INSUNITS
 70
     4
  9
$HYPERLINKBASE
  1

  9
$STYLESHEET
  1

  9
$XEDIT
290
     1
  9
$CEPSNTYPE
380
     0
  9
$PSTYLEMODE
290
     1
  9
$FINGERPRINTGUID
  2
{916f8fda-e243-42ff-941b-fd559e65b6e8}
  9
$VERSIONGUID
  2
{FAEB1C32-E019-11D5-929B-00C0DF256EC4}
  9
$EXTNAMES
290
     1
  9
$PSVPSCALE
 40
0.0
  9
$OLESTARTUP
290
     0
  0
ENDSEC
  0
SECTION
  2
CLASSES
  0
CLASS
  1
ACDBDICTIONARYWDFLT
  2
AcDbDictionaryWithDefault
  3
ObjectDBX Classes
 90
        0
280
     0
281
     0
  0
CLASS
  1
VISUALSTYLE
  2
AcDbVisualStyle
  3
ObjectDBX Classes
 90
     4095
280
     0
281
     0
  0
CLASS
  1
MATERIAL
  2
AcDbMaterial
  3
ObjectDBX Classes
 90
     1153
280
     0
281
     0
  0
CLASS
  1
SCALE
  2
AcDbScale
  3
ObjectDBX Classes
 90
     1153
280
     0
281
     0
  0
CLASS
  1
TABLESTYLE
  2
AcDbTableStyle
  3
ObjectDBX Classes
 90
     4095
280
     0
281
     0
  0
CLASS
  1
MLEADERSTYLE
  2
AcDbMLeaderStyle
  3
ACDB_MLEADERSTYLE_CLASS
 90
     4095
280
     0
281
     0
  0
CLASS
  1
SUN
  2
AcDbSun
  3
SCENEOE
 90
     1153
280
     0
281
     0
  0
CLASS
  1
ACDBPLACEHOLDER
  2
AcDbPlaceHolder
  3
ObjectDBX Classes
 90
        0
280
     0
281
     0
  0
CLASS
  1
LAYOUT
  2
AcDbLayout
  3
ObjectDBX Classes
 90
        0
280
     0
281
     0
  0
ENDSEC
  0
SECTION
  2
TABLES
  0
TABLE
  2
VPORT
  5
8
330
0
100
AcDbSymbolTable
 70
     1
  0
VPORT
  5
29
330
8
100
AcDbSymbolTableRecord
100
AcDbViewportTableRecord
  2
*Active
 70
     0
 10
0.0
 20
0.0
 11
1.0
 21
1.0
 12
139.7
 22
107.95
 13
0.0
 23
0.0
 14
10.0
 24
10.0
 15
10.0
 25
10.0
 16
0.0
 26
0.0
 36
1.0
 17
0.0
 27
0.0
 37
0.0
 40
215.9
 41
1.2941176471
 42
50.0
 43
0.0
 44
0.0
 50
0.0
 51
0.0
 71
     0
 72
  2000
 73
     1
 74
     3
 75
     0
 76
     0
 77
     0
 78
     0
281
     0
 65
     1
110
0.0
120
0.0
130
0.0
111
1.0
121
0.0
131
0.0
112
0.0
122
1.0
132
0.0
 79
     0
146
0.0
  0
ENDTAB
  0
TABLE
  2
LTYPE
  5
5
330
0
100
AcDbSymbolTable
 70
     6
  0
LTYPE
  5
14
330
5
100
AcDbSymbolTableRecord
100
AcDbLinetypeTableRecord
  2
ByBlock
 70
     0
  3

 72
    65
 73
     0
 40
0.0
  0
LTYPE
  5
15
330
5
100
AcDbSymbolTableRecord
100
AcDbLinetypeTableRecord
  2
ByLayer
 70
     0
  3

 72
    65
 73
     0
 40
0.0
  0
LTYPE
  5
16
330
5
100
AcDbSymbolTableRecord
100
AcDbLinetypeTableRecord
  2
Continuous
 70
     0
  3
Solid line
 72
    65
 73
     0
 40
0.0
  0
LTYPE
  5
6E
330
5
100
AcDbSymbolTableRecord
100
AcDbLinetypeTableRecord
  2
HIDDEN
 70
     0
  3
Hidden __ __ __ __ __ __ __ __ __ __ __ __ __ __
 72
    65
 73
     2
 40
1.905
 49
1.27
 74
     0
 49
-0.635
 74
     0
  0
LTYPE
  5
6F
330
5
100
AcDbSymbolTableRecord
100
AcDbLinetypeTableRecord
  2
PHANTOM
 70
     0
  3
Phantom ______  __  __  ______  __  __  ______
 72
    65
 73
     6
 40
12.7
 49
6.35
 74
     0
 49
-1.27
 74
     0
 49
1.27
 74
     0
 49
-1.27
 74
     0
 49
1.27
 74
     0
 49
-1.27
 74
     0
  0
LTYPE
  5
70
330
5
100
AcDbSymbolTableRecord
100
AcDbLinetypeTableRecord
  2
CENTER
 70
     0
  3
Center ____ _ ____ _ ____ _ ____ _ ____ _ ____
 72
    65
 73
     4
 40
10.16
 49
6.35
 74
     0
 49
-1.27
 74
     0
 49
1.27
 74
     0
 49
-1.27
 74
     0
  0
LTYPE
  5
71
330
5
100
AcDbSymbolTableRecord
100
AcDbLinetypeTableRecord
  2
CENTERX2
 70
     0
  3
Center (2x) ________  __  ________  __  _____
 72
    65
 73
     4
 40
20.32
 49
12.7
 74
     0
 49
-2.54
 74
     0
 49
2.54
 74
     0
 49
-2.54
 74
     0
  0
LTYPE
  5
72
330
5
100
AcDbSymbolTableRecord
100
AcDbLinetypeTableRecord
  2
DOT2
 70
     0
  3
Dot (.5x) ........................................
 72
    65
 73
     2
 40
0.635
 49
0.0
 74
     0
 49
-0.635
 74
     0
  0
ENDTAB
  0
TABLE
  2
LAYER
  5
2
330
0
100
AcDbSymbolTable
 70
    17
  0
LAYER
  5
10
330
2
100
AcDbSymbolTableRecord
100
AcDbLayerTableRecord
  2
0
 70
     0
 62
     7
  6
Continuous
370
    -3
390
F
  0
LAYER
  5
73
330
2
100
AcDbSymbolTableRecord
100
AcDbLayerTableRecord
  2
FORMAT
 70
     0
 62
     7
  6
Continuous
370
    -3
390
F
  0
LAYER
  5
74
330
2
100
AcDbSymbolTableRecord
100
AcDbLayerTableRecord
  2
YARDIMCI_GEOMETRI
 70
     0
 62
    -6
  6
Continuous
290
     0
370
    -3
390
F
  0
LAYER
  5
75
330
2
100
AcDbSymbolTableRecord
100
AcDbLayerTableRecord
  2
SAYFA_CERCEVESI
 70
     0
 62
     7
  6
Continuous
370
    25
390
F
  0
LAYER
  5
76
330
2
100
AcDbSymbolTableRecord
100
AcDbLayerTableRecord
  2
ANTET
 70
     0
 62
     7
  6
Continuous
370
    -3
390
F
  0
LAYER
  5
77
330
2
100
AcDbSymbolTableRecord
100
AcDbLayerTableRecord
  2
OLCU
 70
     0
 62
   150
  6
Continuous
370
    -3
390
F
  0
LAYER
  5
78
330
2
100
AcDbSymbolTableRecord
100
AcDbLayerTableRecord
  2
METIN
 70
     0
 62
    96
  6
Continuous
370
    -3
390
F
  0
LAYER
  5
79
330
2
100
AcDbSymbolTableRecord
100
AcDbLayerTableRecord
  2
BALON
 70
     0
 62
     5
  6
Continuous
370
    -3
390
F
  0
LAYER
  5
7A
330
2
100
AcDbSymbolTableRecord
100
AcDbLayerTableRecord
  2
VURGU
 70
     0
 62
     7
  6
Continuous
370
    -3
390
F
  0
LAYER
  5
7B
330
2
100
AcDbSymbolTableRecord
100
AcDbLayerTableRecord
  2
SILIK
 70
     0
 62
     7
  6
Continuous
370
    -3
390
F
  0
LAYER
  5
7C
330
2
100
AcDbSymbolTableRecord
100
AcDbLayerTableRecord
  2
MODEL
 70
     0
 62
     7
  6
Continuous
370
    -3
390
F
  0
LAYER
  5
7D
330
2
100
AcDbSymbolTableRecord
100
AcDbLayerTableRecord
  2
DETAYLANDıRMA
 70
     0
 62
   190
  6
Continuous
370
    -3
390
F
  0
LAYER
  5
7E
330
2
100
AcDbSymbolTableRecord
100
AcDbLayerTableRecord
  2
TOLERANS
 70
     0
 62
   230
  6
Continuous
370
    -3
390
F
  0
LAYER
  5
7F
330
2
100
AcDbSymbolTableRecord
100
AcDbLayerTableRecord
  2
MERKEZ_CIZGILERI
 70
     0
 62
    30
  6
Continuous
370
    -3
390
F
  0
LAYER
  5
80
330
2
100
AcDbSymbolTableRecord
100
AcDbLayerTableRecord
  2
KESIT-DETAY_CIZGILERI
 70
     0
 62
     7
  6
Continuous
370
    -3
390
F
  0
LAYER
  5
81
330
2
100
AcDbSymbolTableRecord
100
AcDbLayerTableRecord
  2
\U+041E\U+0421\U+0415\U+0412\U+042B\U+0415
 70
     0
 62
     7
  6
Continuous
370
    -3
390
F
  0
LAYER
  5
82
330
2
100
AcDbSymbolTableRecord
100
AcDbLayerTableRecord
  2
\U+0412\U+041E\U+0414\U+042F\U+041D\U+042B\U+0415_\U+0417\U+041D\U+0410\U+041A\U+0418
 70
     0
 62
    11
  6
Continuous
370
    -3
390
F
  0
ENDTAB
  0
TABLE
  2
STYLE
  5
3
330
0
100
AcDbSymbolTable
 70
     1
  0
STYLE
  5
11
330
3
100
AcDbSymbolTableRecord
100
AcDbTextStyleTableRecord
  2
Standard
 70
     0
 40
0.0
 41
1.0
 50
0.0
 71
     0
 42
3.5
  3
txt
  4

  0
ENDTAB
  0
TABLE
  2
VIEW
  5
6
330
0
100
AcDbSymbolTable
 70
     0
  0
ENDTAB
  0
TABLE
  2
UCS
  5
7
330
0
100
AcDbSymbolTable
 70
     0
  0
ENDTAB
  0
TABLE
  2
APPID
  5
9
330
0
100
AcDbSymbolTable
 70
     1
  0
APPID
  5
12
330
9
100
AcDbSymbolTableRecord
100
AcDbRegAppTableRecord
  2
ACAD
 70
     0
  0
ENDTAB
  0
TABLE
  2
DIMSTYLE
  5
A
330
0
100
AcDbSymbolTable
 70
     1
100
AcDbDimStyleTable
  0
DIMSTYLE
105
27
330
A
100
AcDbSymbolTableRecord
100
AcDbDimStyleTableRecord
  2
ISO-25
 70
     0
 41
2.5
 42
0.625
 43
3.75
 44
1.25
 73
     0
 74
     0
 77
     1
 78
     8
140
2.5
141
2.5
143
0.0393700787
147
0.625
171
     3
172
     1
178
     0
271
     2
272
     2
274
     3
278
    44
283
     0
284
     8
340
11
  0
ENDTAB
  0
TABLE
  2
BLOCK_RECORD
  5
1
330
0
100
AcDbSymbolTable
 70
     2
  0
BLOCK_RECORD
  5
1F
330
1
100
AcDbSymbolTableRecord
100
AcDbBlockTableRecord
  2
*Model_Space
340
22
  0
BLOCK_RECORD
  5
1B
330
1
100
AcDbSymbolTableRecord
100
AcDbBlockTableRecord
  2
*Paper_Space
340
1E
  0
BLOCK_RECORD
  5
23
330
1
100
AcDbSymbolTableRecord
100
AcDbBlockTableRecord
  2
*Paper_Space0
340
26
  0
BLOCK_RECORD
  5
A2
330
1
100
AcDbSymbolTableRecord
100
AcDbBlockTableRecord
  2
SW_CENTERMARKSYMBOL_0
340
0
102
{BLKREFS
331
AD
102
}
  0
ENDTAB
  0
ENDSEC
  0
SECTION
  2
BLOCKS
  0
BLOCK
  5
20
330
1F
100
AcDbEntity
  8
0
100
AcDbBlockBegin
  2
*Model_Space
 70
     0
 10
0.0
 20
0.0
 30
0.0
  3
*Model_Space
  1

  0
ENDBLK
  5
21
330
1F
100
AcDbEntity
  8
0
100
AcDbBlockEnd
  0
BLOCK
  5
1C
330
1B
100
AcDbEntity
 67
     1
  8
0
100
AcDbBlockBegin
  2
*Paper_Space
 70
     0
 10
0.0
 20
0.0
 30
0.0
  3
*Paper_Space
  1

  0
ENDBLK
  5
1D
330
1B
100
AcDbEntity
 67
     1
  8
0
100
AcDbBlockEnd
  0
BLOCK
  5
24
330
23
100
AcDbEntity
  8
0
100
AcDbBlockBegin
  2
*Paper_Space0
 70
     0
 10
0.0
 20
0.0
 30
0.0
  3
*Paper_Space0
  1

  0
ENDBLK
  5
25
330
23
100
AcDbEntity
  8
0
100
AcDbBlockEnd
  0
BLOCK
  5
A3
330
A2
100
AcDbEntity
  8
0
100
AcDbBlockBegin
  2
SW_CENTERMARKSYMBOL_0
 70
     0
 10
0.0
 20
0.0
 30
0.0
  3
SW_CENTERMARKSYMBOL_0
  1

  0
LINE
  5
A5
330
A2
100
AcDbEntity
  8
FORMAT
 62
     0
100
AcDbLine
 10
0.0
 20
0.0
 30
0.0
 11
0.0
 21
2.5
 31
0.0
  0
LINE
  5
A6
330
A2
100
AcDbEntity
  8
FORMAT
 62
     0
100
AcDbLine
 10
0.0
 20
0.0
 30
0.0
 11
-2.5
 21
0.0
 31
0.0
  0
LINE
  5
A7
330
A2
100
AcDbEntity
  8
FORMAT
 62
     0
100
AcDbLine
 10
0.0
 20
0.0
 30
0.0
 11
0.0
 21
-2.5
 31
0.0
  0
LINE
  5
A8
330
A2
100
AcDbEntity
  8
FORMAT
 62
     0
100
AcDbLine
 10
0.0
 20
0.0
 30
0.0
 11
2.5
 21
0.0
 31
0.0
  0
LINE
  5
A9
330
A2
100
AcDbEntity
  8
FORMAT
 62
     0
100
AcDbLine
 10
0.0
 20
5.0
 30
0.0
 11
0.0
 21
115.0
 31
0.0
  0
LINE
  5
AA
330
A2
100
AcDbEntity
  8
FORMAT
 62
     0
100
AcDbLine
 10
-5.0
 20
0.0
 30
0.0
 11
-115.0
 21
0.0
 31
0.0
  0
LINE
  5
AB
330
A2
100
AcDbEntity
  8
FORMAT
 62
     0
100
AcDbLine
 10
0.0
 20
-5.0
 30
0.0
 11
0.0
 21
-115.0
 31
0.0
  0
LINE
  5
AC
330
A2
100
AcDbEntity
  8
FORMAT
 62
     0
100
AcDbLine
 10
5.0
 20
0.0
 30
0.0
 11
115.0
 21
0.0
 31
0.0
  0
ENDBLK
  5
A4
330
A2
100
AcDbEntity
  8
0
100
AcDbBlockEnd
  0
ENDSEC
  0
SECTION
  2
ENTITIES
  0
LINE
  5
83
330
1F
100
AcDbEntity
  8
0
  6
Continuous
 62
     7
370
    25
100
AcDbLine
 10
144.4695899887
 20
370.4675785937
 30
0.0
 11
29.4523991376
 21
171.2519602958
 31
0.0
  0
LINE
  5
84
330
1F
100
AcDbEntity
  8
0
  6
Continuous
 62
     7
370
    25
100
AcDbLine
 10
254.4523991376
 20
110.9633919988
 30
0.0
 11
339.3253058402
 21
257.9675785937
 31
0.0
  0
LINE
  5
85
330
1F
100
AcDbEntity
  8
0
  6
Continuous
 62
     7
370
    25
100
AcDbLine
 10
29.4523991376
 20
171.2519602958
 30
0.0
 11
29.4523991376
 21
-58.7824214063
 31
0.0
  0
LINE
  5
86
330
1F
100
AcDbEntity
  8
0
  6
Continuous
 62
     7
370
    25
100
AcDbLine
 10
254.4523991376
 20
-58.7824214063
 30
0.0
 11
254.4523991376
 21
110.9633919988
 31
0.0
  0
LINE
  5
87
330
1F
100
AcDbEntity
  8
0
  6
Continuous
 62
     7
370
    25
100
AcDbLine
 10
241.8974479144
 20
314.2175785937
 30
0.0
 11
339.3253058402
 21
257.9675785937
 31
0.0
  0
LINE
  5
88
330
1F
100
AcDbEntity
  8
0
  6
Continuous
 62
     7
370
    25
100
AcDbLine
 10
144.4695899887
 20
370.4675785937
 30
0.0
 11
241.8974479144
 21
314.2175785937
 31
0.0
  0
LINE
  5
89
330
1F
100
AcDbEntity
  8
0
  6
Continuous
 62
     7
370
    25
100
AcDbLine
 10
254.4523991376
 20
110.9633919988
 30
0.0
 11
29.4523991376
 21
171.2519602958
 31
0.0
  0
LINE
  5
8A
330
1F
100
AcDbEntity
  8
0
  6
Continuous
 62
     7
370
    25
100
AcDbLine
 10
141.9523991376
 20
-58.7824214063
 30
0.0
 11
254.4523991376
 21
-58.7824214063
 31
0.0
  0
LINE
  5
8B
330
1F
100
AcDbEntity
  8
0
  6
Continuous
 62
     7
370
    25
100
AcDbLine
 10
29.4523991376
 20
-58.7824214063
 30
0.0
 11
141.9523991376
 21
-58.7824214063
 31
0.0
  0
LINE
  5
8C
330
1F
100
AcDbEntity
  8
0
  6
Continuous
 62
     7
370
    25
100
AcDbLine
 10
-310.3792244594
 20
314.2175785937
 30
0.0
 11
-310.3792244594
 21
141.1076761473
 31
0.0
  0
LINE
  5
8D
330
1F
100
AcDbEntity
  8
0
  6
Continuous
 62
     7
370
    25
100
AcDbLine
 10
-85.3792244594
 20
141.1076761473
 30
0.0
 11
-85.3792244594
 21
314.2175785937
 31
0.0
  0
LINE
  5
8E
330
1F
100
AcDbEntity
  8
0
  6
Continuous
 62
     7
370
    25
100
AcDbLine
 10
-310.3792244594
 20
141.1076761473
 30
0.0
 11
-310.3792244594
 21
-58.7824214063
 31
0.0
  0
LINE
  5
8F
330
1F
100
AcDbEntity
  8
0
  6
Continuous
 62
     7
370
    25
100
AcDbLine
 10
-85.3792244594
 20
-58.7824214063
 30
0.0
 11
-85.3792244594
 21
141.1076761473
 31
0.0
  0
LWPOLYLINE
  5
90
330
1F
100
AcDbEntity
  8
0
  6
Continuous
 62
     7
370
    25
100
AcDbPolyline
 90
      113
 70
   128
 43
0.0
 10
-310.3792244594
 20
314.2175785937
 10
-310.2022411489
 20
311.0636159366
 10
-309.6718480724
 20
307.9195768129
 10
-308.7897140427
 20
304.7953535328
 10
-307.5586145799
 20
301.7007760586
 10
-305.9824231783
 20
298.645581076
 10
-304.0660991191
 20
295.6393813587
 10
-301.815671867
 20
292.6916355231
 10
-299.2382220985
 20
289.8116182683
 10
-296.3418594242
 20
287.008391194
 10
-293.1356968726
 20
284.2907742897
 10
-289.6298222173
 20
281.6673181836
 10
-285.8352662371
 20
279.1462772391
 10
-281.7639680088
 20
276.7355835839
 10
-277.4287373429
 20
274.4428221519
 10
-272.843214479
 20
272.275206819
 10
-268.0218271685
 20
270.2395577048
 10
-262.9797452797
 20
268.3422797147
 10
-257.7328330674
 20
266.5893423871
 10
-252.2975992588
 20
264.9862611113
 10
-246.6911451102
 20
263.5380797742
 10
-240.9311106005
 20
262.2493548899
 10
-235.0356189294
 20
261.1241412638
 10
-229.0232194947
 20
260.1659792343
 10
-222.9128295295
 20
259.3778835334
 10
-216.7236745812
 20
258.762333802
 10
-210.4752280211
 20
258.3212667872
 10
-204.1871497736
 20
258.0560702489
 10
-197.8792244594
 20
257.9675785937
 10
-191.5712991452
 20
258.0560702489
 10
-185.2832208978
 20
258.3212667872
 10
-179.0347743376
 20
258.762333802
 10
-172.8456193893
 20
259.3778835334
 10
-166.7352294241
 20
260.1659792343
 10
-160.7228299895
 20
261.1241412638
 10
-154.8273383184
 20
262.2493548899
 10
-149.0673038087
 20
263.5380797742
 10
-143.4608496601
 20
264.9862611113
 10
-138.0256158515
 20
266.5893423871
 10
-132.7787036392
 20
268.3422797147
 10
-127.7366217503
 20
270.2395577048
 10
-122.9152344398
 20
272.275206819
 10
-118.3297115759
 20
274.4428221519
 10
-113.9944809101
 20
276.7355835839
 10
-109.9231826818
 20
279.1462772391
 10
-106.1286267015
 20
281.6673181836
 10
-102.6227520462
 20
284.2907742897
 10
-99.4165894947
 20
287.008391194
 10
-96.5202268204
 20
289.8116182683
 10
-93.9427770519
 20
292.6916355231
 10
-91.6923497997
 20
295.6393813587
 10
-89.7760257406
 20
298.645581076
 10
-88.199834339
 20
301.7007760586
 10
-86.9687348761
 20
304.7953535328
 10
-86.0866008464
 20
307.9195768129
 10
-85.5562077699
 20
311.0636159366
 10
-85.3792244594
 20
314.2175785937
 10
-85.5562077699
 20
317.3715412508
 10
-86.0866008464
 20
320.5155803745
 10
-86.9687348761
 20
323.6398036546
 10
-88.199834339
 20
326.7343811287
 10
-89.7760257406
 20
329.7895761113
 10
-91.6923497997
 20
332.7957758286
 10
-93.9427770519
 20
335.7435216642
 10
-96.5202268204
 20
338.623538919
 10
-99.4165894947
 20
341.4267659933
 10
-102.6227520462
 20
344.1443828977
 10
-106.1286267015
 20
346.7678390038
 10
-109.9231826818
 20
349.2888799482
 10
-113.9944809101
 20
351.6995736035
 10
-118.3297115759
 20
353.9923350354
 10
-122.9152344398
 20
356.1599503683
 10
-127.7366217503
 20
358.1955994825
 10
-132.7787036392
 20
360.0928774726
 10
-138.0256158515
 20
361.8458148003
 10
-143.4608496601
 20
363.448896076
 10
-149.0673038087
 20
364.8970774132
 10
-154.8273383184
 20
366.1858022974
 10
-160.7228299895
 20
367.3110159235
 10
-166.7352294241
 20
368.2691779531
 10
-172.8456193893
 20
369.0572736539
 10
-179.0347743376
 20
369.6728233853
 10
-185.2832208978
 20
370.1138904002
 10
-191.5712991452
 20
370.3790869384
 10
-197.8792244594
 20
370.4675785937
 10
-204.1871497736
 20
370.3790869384
 10
-210.4752280211
 20
370.1138904002
 10
-216.7236745812
 20
369.6728233853
 10
-222.9128295295
 20
369.0572736539
 10
-229.0232194947
 20
368.2691779531
 10
-235.0356189294
 20
367.3110159235
 10
-240.9311106005
 20
366.1858022974
 10
-246.6911451102
 20
364.8970774132
 10
-252.2975992588
 20
363.448896076
 10
-257.7328330674
 20
361.8458148003
 10
-262.9797452797
 20
360.0928774726
 10
-268.0218271685
 20
358.1955994825
 10
-272.843214479
 20
356.1599503683
 10
-277.4287373429
 20
353.9923350354
 10
-281.7639680088
 20
351.6995736035
 10
-285.8352662371
 20
349.2888799482
 10
-289.6298222173
 20
346.7678390038
 10
-293.1356968726
 20
344.1443828977
 10
-296.3418594242
 20
341.4267659933
 10
-299.2382220985
 20
338.623538919
 10
-301.815671867
 20
335.7435216642
 10
-304.0660991191
 20
332.7957758286
 10
-305.9824231783
 20
329.7895761113
 10
-307.5586145799
 20
326.7343811287
 10
-308.7897140427
 20
323.6398036546
 10
-309.6718480724
 20
320.5155803745
 10
-310.2022411489
 20
317.3715412508
 10
-310.3792244594
 20
314.2175785937
  0
ELLIPSE
  5
91
330
1F
100
AcDbEntity
  8
0
  6
Continuous
 62
     7
370
    25
100
AcDbEllipse
 10
-197.8792244594
 20
141.1076761473
 30
0.0
 11
112.5
 21
0.0
 31
0.0
210
0.0
220
0.0
230
1.0
 40
0.2679491924
 41
3.14159265358985
 42
6.283185307179586
  0
LWPOLYLINE
  5
92
330
1F
100
AcDbEntity
  8
0
  6
Continuous
 62
     7
370
    25
100
AcDbPolyline
 90
      102
 70
   128
 43
0.0
 10
-289.8792244594
 20
314.2175785937
 10
-289.7012593957
 20
317.0773819155
 10
-289.1680527169
 20
319.9261212139
 10
-288.2816672959
 20
322.7527752698
 10
-287.0455323858
 20
325.5464083079
 10
-285.4644303524
 20
328.2962123047
 10
-283.5444781724
 20
330.9915488027
 10
-281.2931037677
 20
333.6219900685
 10
-278.7190172686
 20
336.177359436
 10
-275.8321773155
 20
338.6477706775
 10
-272.6437525316
 20
341.0236662518
 10
-269.1660783129
 20
343.2958542805
 10
-265.4126091053
 20
345.4555441095
 10
-261.397866352
 20
347.4943803184
 10
-257.1373823129
 20
349.4044750461
 10
-252.6476399729
 20
351.1784385071
 10
-247.946009273
 20
352.8094075813
 10
-243.050679909
 20
354.2910723663
 10
-237.9805909592
 20
355.6177005888
 10
-232.7553576127
 20
356.7841597821
 10
-227.3951952824
 20
357.785937142
 10
-221.920841395
 20
358.6191569866
 10
-216.3534751622
 20
359.2805957501
 10
-210.7146356423
 20
359.7676944546
 10
-205.02613841
 20
360.0785686097
 10
-199.3099911561
 20
360.2120155036
 10
-193.5883085438
 20
360.1675188564
 10
-187.8832266516
 20
359.9452508169
 10
-182.216817333
 20
359.546071297
 10
-176.6110028249
 20
358.9715246446
 10
-171.0874709345
 20
358.2238336691
 10
-165.6675911338
 20
357.3058910418
 10
-160.3723318848
 20
356.2212481042
 10
-155.2221795168
 20
354.9741011292
 10
-150.2370589688
 20
353.5692750862
 10
-145.4362567038
 20
352.0122049742
 10
-140.838346093
 20
350.308914795
 10
-136.4611155595
 20
348.4659942474
 10
-132.3214997579
 20
346.490573233
 10
-128.4355140573
 20
344.3902942719
 10
-124.8181925817
 20
342.1732829354
 10
-121.4835300451
 20
339.8481164097
 10
-118.4444276089
 20
337.4237903123
 10
-115.7126429702
 20
334.90968389
 10
-113.2987448731
 20
332.3155237321
 10
-111.2120722202
 20
329.6513461404
 10
-109.4606979427
 20
326.9274583002
 10
-108.0513977676
 20
324.1543984046
 10
-106.9896240033
 20
321.3428948835
 10
-106.2794844463
 20
318.5038248979
 10
-105.9237264886
 20
315.6481722581
 10
-105.9237264886
 20
312.7869849293
 10
-106.2794844463
 20
309.9313322894
 10
-106.9896240033
 20
307.0922623038
 10
-108.0513977676
 20
304.2807587828
 10
-109.4606979427
 20
301.5076988871
 10
-111.2120722202
 20
298.783811047
 10
-113.2987448731
 20
296.1196334552
 10
-115.7126429702
 20
293.5254732973
 10
-118.4444276089
 20
291.011366875
 10
-121.4835300451
 20
288.5870407777
 10
-124.8181925817
 20
286.261874252
 10
-128.4355140573
 20
284.0448629155
 10
-132.3214997579
 20
281.9445839544
 10
-136.4611155595
 20
279.9691629399
 10
-140.838346093
 20
278.1262423923
 10
-145.4362567038
 20
276.4229522131
 10
-150.2370589688
 20
274.8658821011
 10
-155.2221795168
 20
273.4610560581
 10
-160.3723318848
 20
272.2139090832
 10
-165.6675911338
 20
271.1292661456
 10
-171.0874709345
 20
270.2113235182
 10
-176.6110028249
 20
269.4636325428
 10
-182.216817333
 20
268.8890858904
 10
-187.8832266516
 20
268.4899063704
 10
-193.5883085438
 20
268.2676383309
 10
-199.3099911561
 20
268.2231416837
 10
-205.02613841
 20
268.3565885777
 10
-210.7146356423
 20
268.6674627328
 10
-216.3534751622
 20
269.1545614372
 10
-221.920841395
 20
269.8160002008
 10
-227.3951952824
 20
270.6492200454
 10
-232.7553576127
 20
271.6509974053
 10
-237.9805909592
 20
272.8174565985
 10
-243.050679909
 20
274.1440848211
 10
-247.946009273
 20
275.6257496061
 10
-252.6476399729
 20
277.2567186803
 10
-257.1373823129
 20
279.0306821412
 10
-261.397866352
 20
280.9407768689
 10
-265.4126091053
 20
282.9796130778
 10
-269.1660783129
 20
285.1393029069
 10
-272.6437525316
 20
287.4114909355
 10
-275.8321773155
 20
289.7873865098
 10
-278.7190172686
 20
292.2577977513
 10
-281.2931037677
 20
294.8131671188
 10
-283.5444781724
 20
297.4436083847
 10
-285.4644303524
 20
300.1389448826
 10
-287.0455323858
 20
302.8887488794
 10
-288.2816672959
 20
305.6823819175
 10
-289.1680527169
 20
308.5090359735
 10
-289.7012593957
 20
311.3577752718
 10
-289.8792244594
 20
314.2175785937
  0
LINE
  5
93
330
1F
100
AcDbEntity
  8
0
  6
Continuous
 62
     7
370
    25
100
AcDbLine
 10
-310.3792244594
 20
-58.7824214063
 30
0.0
 11
-85.3792244594
 21
-58.7824214063
 31
0.0
  0
LINE
  5
94
330
1F
100
AcDbEntity
  8
0
  6
Continuous
 62
     7
370
    25
100
AcDbLine
 10
481.1222697957
 20
141.1076761473
 30
0.0
 11
481.1222697957
 21
-58.7824214063
 31
0.0
  0
LINE
  5
95
330
1F
100
AcDbEntity
  8
0
  6
Continuous
 62
     7
370
    25
100
AcDbLine
 10
706.1222697957
 20
-58.7824214063
 30
0.0
 11
706.1222697957
 21
141.1076761473
 31
0.0
  0
LINE
  5
96
330
1F
100
AcDbEntity
  8
0
  6
Continuous
 62
     7
370
    25
100
AcDbLine
 10
481.1222697957
 20
314.2175785937
 30
0.0
 11
481.1222697957
 21
141.1076761473
 31
0.0
  0
LINE
  5
97
330
1F
100
AcDbEntity
  8
0
  6
Continuous
 62
     7
370
    25
100
AcDbLine
 10
706.1222697957
 20
141.1076761473
 30
0.0
 11
706.1222697957
 21
314.2175785937
 31
0.0
  0
ELLIPSE
  5
98
330
1F
100
AcDbEntity
  8
0
  6
Continuous
 62
     7
370
    25
100
AcDbEllipse
 10
593.6222697957
 20
141.1076761473
 30
0.0
 11
112.4999999999999
 21
0.0
 31
0.0
210
0.0
220
0.0
230
1.0
 40
0.2679491924
 41
1.570796326794897
 42
3.141592653589849
  0
ELLIPSE
  5
99
330
1F
100
AcDbEntity
  8
0
  6
Continuous
 62
     7
370
    25
100
AcDbEllipse
 10
593.6222697957
 20
141.1076761473
 30
0.0
 11
112.4999999999999
 21
0.0
 31
0.0
210
0.0
220
0.0
230
1.0
 40
0.2679491924
 41
0.0
 42
1.570796326794922
  0
LINE
  5
9A
330
1F
100
AcDbEntity
  8
0
  6
Continuous
 62
     7
370
    25
100
AcDbLine
 10
481.1222697957
 20
-58.7824214063
 30
0.0
 11
706.1222697957
 21
-58.7824214063
 31
0.0
  0
LWPOLYLINE
  5
9B
330
1F
100
AcDbEntity
  8
0
  6
Continuous
 62
     7
370
    25
100
AcDbPolyline
 90
       57
 70
   128
 43
0.0
 10
481.1222697957
 20
314.2175785937
 10
481.2992531062
 20
317.3715412508
 10
481.8296461827
 20
320.5155803745
 10
482.7117802124
 20
323.6398036546
 10
483.9428796753
 20
326.7343811287
 10
485.5190710769
 20
329.7895761113
 10
487.435395136
 20
332.7957758286
 10
489.6858223882
 20
335.7435216642
 10
492.2632721567
 20
338.623538919
 10
495.159634831
 20
341.4267659933
 10
498.3657973826
 20
344.1443828977
 10
501.8716720378
 20
346.7678390038
 10
505.6662280181
 20
349.2888799482
 10
509.7375262464
 20
351.6995736035
 10
514.0727569122
 20
353.9923350354
 10
518.6582797761
 20
356.1599503683
 10
523.4796670866
 20
358.1955994825
 10
528.5217489755
 20
360.0928774726
 10
533.7686611878
 20
361.8458148003
 10
539.2038949964
 20
363.448896076
 10
544.810349145
 20
364.8970774132
 10
550.5703836547
 20
366.1858022974
 10
556.4658753258
 20
367.3110159235
 10
562.4782747604
 20
368.2691779531
 10
568.5886647257
 20
369.0572736539
 10
574.777819674
 20
369.6728233853
 10
581.0262662341
 20
370.1138904002
 10
587.3143444816
 20
370.3790869384
 10
593.6222697957
 20
370.4675785937
 10
599.9301951099
 20
370.3790869384
 10
606.2182733574
 20
370.1138904002
 10
612.4667199175
 20
369.6728233853
 10
618.6558748658
 20
369.0572736539
 10
624.766264831
 20
368.2691779531
 10
630.7786642657
 20
367.3110159235
 10
636.6741559368
 20
366.1858022974
 10
642.4341904465
 20
364.8970774132
 10
648.0406445951
 20
363.448896076
 10
653.4758784037
 20
361.8458148003
 10
658.722790616
 20
360.0928774726
 10
663.7648725048
 20
358.1955994825
 10
668.5862598153
 20
356.1599503683
 10
673.1717826792
 20
353.9923350354
 10
677.5070133451
 20
351.6995736035
 10
681.5783115734
 20
349.2888799482
 10
685.3728675537
 20
346.7678390038
 10
688.8787422089
 20
344.1443828977
 10
692.0849047605
 20
341.4267659933
 10
694.9812674348
 20
338.623538919
 10
697.5587172033
 20
335.7435216642
 10
699.8091444554
 20
332.7957758286
 10
701.7254685146
 20
329.7895761113
 10
703.3016599162
 20
326.7343811287
 10
704.532759379
 20
323.6398036546
 10
705.4148934087
 20
320.5155803745
 10
705.9452864852
 20
317.3715412508
 10
706.1222697957
 20
314.2175785937
  0
LINE
  5
9C
330
1F
100
AcDbEntity
  8
0
  6
Continuous
 62
     7
370
    25
100
AcDbLine
 10
241.8974479144
 20
696.6156585367
 30
0.0
 11
141.9523991376
 21
696.6156585367
 31
0.0
  0
LINE
  5
9D
330
1F
100
AcDbEntity
  8
0
  6
Continuous
 62
     7
370
    25
100
AcDbLine
 10
141.9523991376
 20
471.6156585367
 30
0.0
 11
241.8974479144
 21
471.6156585367
 31
0.0
  0
CIRCLE
  5
9E
330
1F
100
AcDbEntity
  8
0
  6
Continuous
 62
     7
370
    25
100
AcDbCircle
 10
141.9523991376
 20
584.1156585367
 30
0.0
 40
112.5
  0
CIRCLE
  5
9F
330
1F
100
AcDbEntity
  8
0
  6
Continuous
 62
     7
370
    25
100
AcDbCircle
 10
141.9523991376
 20
584.1156585367
 30
0.0
 40
92.0
  0
LWPOLYLINE
  5
A0
330
1F
100
AcDbEntity
  8
0
  6
Continuous
 62
     7
370
    25
100
AcDbPolyline
 90
       58
 70
   128
 43
0.0
 10
241.8974479144
 20
696.6156585367
 10
247.3602714817
 20
696.4386752262
 10
252.805906985
 20
695.9082821497
 10
258.2172204403
 20
695.02614812
 10
263.5771858534
 20
693.7950486571
 10
268.8689387903
 20
692.2188572555
 10
274.0758294385
 20
690.3025331964
 10
279.1814749934
 20
688.0521059442
 10
284.1698112055
 20
685.4746561757
 10
289.0251429233
 20
682.5782935014
 10
293.7321934771
 20
679.3721309499
 10
298.2761527444
 20
675.8662562946
 10
302.6427237481
 20
672.0717003143
 10
306.8181676405
 20
668.000402086
 10
310.7893469302
 20
663.6651714202
 10
314.5437668181
 20
659.0796485563
 10
318.0696145102
 20
654.2582612458
 10
321.3557963852
 20
649.2161793569
 10
324.3919728992
 20
643.9692671447
 10
327.1685911175
 20
638.534033336
 10
329.676914772
 20
632.9275791874
 10
331.9090517485
 20
627.1675446777
 10
333.8579789182
 20
621.2720530066
 10
335.5175642353
 20
615.259653572
 10
336.8825860303
 20
609.1492636068
 10
337.9487494398
 20
602.9601086585
 10
338.712699919
 20
596.7116620983
 10
339.1720337973
 20
590.4235838509
 10
339.3253058402
 20
584.1156585367
 10
339.1720337973
 20
577.8077332225
 10
338.712699919
 20
571.5196549751
 10
337.9487494398
 20
565.2712084149
 10
336.8825860303
 20
559.0820534666
 10
335.5175642353
 20
552.9716635014
 10
333.8579789182
 20
546.9592640667
 10
331.9090517485
 20
541.0637723956
 10
329.676914772
 20
535.3037378859
 10
327.1685911175
 20
529.6972837373
 10
324.3919728992
 20
524.2620499287
 10
321.3557963852
 20
519.0151377164
 10
318.0696145102
 20
513.9730558276
 10
314.5437668181
 20
509.1516685171
 10
310.7893469302
 20
504.5661456532
 10
306.8181676405
 20
500.2309149873
 10
302.6427237481
 20
496.159616759
 10
298.2761527444
 20
492.3650607788
 10
293.7321934771
 20
488.8591861235
 10
289.0251429233
 20
485.6530235719
 10
284.1698112055
 20
482.7566608977
 10
279.1814749934
 20
480.1792111292
 10
274.0758294385
 20
477.928783877
 10
268.8689387903
 20
476.0124598179
 10
263.5771858534
 20
474.4362684162
 10
258.2172204403
 20
473.2051689534
 10
252.805906985
 20
472.3230349237
 10
247.3602714817
 20
471.7926418472
 10
241.8974479144
 20
471.6156585367
 10
241.8974479144
 20
471.6156585367
  0
LWPOLYLINE
  5
A1
330
1F
100
AcDbEntity
  8
0
  6
Continuous
 62
     7
370
    25
100
AcDbPolyline
 90
       33
 70
   128
 43
0.0
 10
195.5127893521
 20
658.917293546
 10
195.4679421384
 20
658.8801866089
 10
191.5323970284
 20
655.4025123901
 10
187.7917045159
 20
651.6490431825
 10
184.2603366137
 20
647.6343004293
 10
180.9519554982
 20
643.3738163901
 10
177.879360653
 20
638.8840740501
 10
175.0544393509
 20
634.1824433502
 10
172.4881206635
 20
629.2871139862
 10
170.1903331793
 20
624.2170250364
 10
168.1699665916
 20
618.99179169
 10
166.4348373064
 20
613.6316293597
 10
164.9916582017
 20
608.1572754723
 10
163.8460126571
 20
602.5899092394
 10
163.0023329527
 20
596.9510697195
 10
162.4638831214
 20
591.2625724873
 10
162.2327463209
 20
585.5464252333
 10
162.3098167746
 20
579.824742621
 10
162.6947963119
 20
574.1196607288
 10
163.3861955219
 20
568.4532514102
 10
164.3813395151
 20
562.8474369021
 10
165.6763782729
 20
557.3239050118
 10
167.266301542
 20
551.9040252111
 10
169.1449582179
 20
546.608765962
 10
171.3050801431
 20
541.458613594
 10
173.7383102253
 20
536.473493046
 10
176.4352347703
 20
531.672690781
 10
179.3854199007
 20
527.0747801703
 10
182.5774519235
 20
522.6975496368
 10
185.9989814868
 20
518.5579338351
 10
189.6367713575
 20
514.6719481346
 10
193.4767476332
 20
511.054626659
 10
195.5127893521
 20
509.3140235273
  0
INSERT
  5
AD
330
1F
100
AcDbEntity
  8
FORMAT
 62
     7
100
AcDbBlockReference
  2
SW_CENTERMARKSYMBOL_0
 10
141.9523991376
 20
584.1156585367
 30
0.0
  0
LINE
  5
AE
330
1F
100
AcDbEntity
  8
0
  6
Continuous
 62
     7
370
    25
100
AcDbLine
 10
241.8974479144
 20
-240.9745039339
 30
0.0
 11
141.9523991376
 21
-240.9745039339
 31
0.0
  0
LINE
  5
AF
330
1F
100
AcDbEntity
  8
0
  6
Continuous
 62
     7
370
    25
100
AcDbLine
 10
141.9523991376
 20
-465.9745039339
 30
0.0
 11
241.8974479144
 21
-465.9745039339
 31
0.0
  0
LWPOLYLINE
  5
B0
330
1F
100
AcDbEntity
  8
0
  6
Continuous
 62
     7
370
    25
100
AcDbPolyline
 90
      113
 70
   128
 43
0.0
 10
241.8974479144
 20
-465.9745039339
 10
247.3602714817
 20
-465.7975206234
 10
252.805906985
 20
-465.2671275469
 10
258.2172204403
 20
-464.3849935172
 10
263.5771858534
 20
-463.1538940543
 10
268.8689387903
 20
-461.5777026527
 10
274.0758294385
 20
-459.6613785936
 10
279.1814749934
 20
-457.4109513414
 10
284.1698112055
 20
-454.8335015729
 10
289.0251429233
 20
-451.9371388986
 10
293.7321934771
 20
-448.7309763471
 10
298.2761527444
 20
-445.2251016918
 10
302.6427237481
 20
-441.4305457115
 10
306.8181676405
 20
-437.3592474832
 10
310.7893469302
 20
-433.0240168174
 10
314.5437668181
 20
-428.4384939535
 10
318.0696145102
 20
-423.617106643
 10
321.3557963852
 20
-418.5750247541
 10
324.3919728992
 20
-413.3281125418
 10
327.1685911175
 20
-407.8928787332
 10
329.676914772
 20
-402.2864245846
 10
331.9090517485
 20
-396.5263900749
 10
333.8579789182
 20
-390.6308984038
 10
335.5175642353
 20
-384.6184989692
 10
336.8825860303
 20
-378.508109004
 10
337.9487494398
 20
-372.3189540557
 10
338.712699919
 20
-366.0705074955
 10
339.1720337973
 20
-359.7824292481
 10
339.3253058402
 20
-353.4745039339
 10
339.1720337973
 20
-347.1665786197
 10
338.712699919
 20
-340.8785003723
 10
337.9487494398
 20
-334.6300538121
 10
336.8825860303
 20
-328.4408988638
 10
335.5175642353
 20
-322.3305088986
 10
333.8579789182
 20
-316.3181094639
 10
331.9090517485
 20
-310.4226177928
 10
329.676914772
 20
-304.6625832831
 10
327.1685911175
 20
-299.0561291345
 10
324.3919728992
 20
-293.6208953259
 10
321.3557963852
 20
-288.3739831136
 10
318.0696145102
 20
-283.3319012248
 10
314.5437668181
 20
-278.5105139143
 10
310.7893469302
 20
-273.9249910504
 10
306.8181676405
 20
-269.5897603845
 10
302.6427237481
 20
-265.5184621562
 10
298.2761527444
 20
-261.723906176
 10
293.7321934771
 20
-258.2180315207
 10
289.0251429233
 20
-255.0118689691
 10
284.1698112055
 20
-252.1155062949
 10
279.1814749934
 20
-249.5380565264
 10
274.0758294385
 20
-247.2876292742
 10
268.8689387903
 20
-245.371305215
 10
263.5771858534
 20
-243.7951138134
 10
258.2172204403
 20
-242.5640143506
 10
252.805906985
 20
-241.6818803209
 10
247.3602714817
 20
-241.1514872444
 10
241.8974479144
 20
-240.9745039339
 10
236.4346243472
 20
-241.1514872444
 10
230.9889888439
 20
-241.6818803209
 10
225.5776753886
 20
-242.5640143506
 10
220.2177099754
 20
-243.7951138134
 10
214.9259570385
 20
-245.371305215
 10
209.7190663904
 20
-247.2876292742
 10
204.6134208354
 20
-249.5380565264
 10
199.6250846234
 20
-252.1155062949
 10
194.7697529056
 20
-255.0118689691
 10
190.0627023518
 20
-258.2180315207
 10
185.5187430845
 20
-261.723906176
 10
181.1521720808
 20
-265.5184621562
 10
176.9767281884
 20
-269.5897603845
 10
173.0055488987
 20
-273.9249910504
 10
169.2511290108
 20
-278.5105139143
 10
165.7252813187
 20
-283.3319012248
 10
162.4390994437
 20
-288.3739831136
 10
159.4029229297
 20
-293.6208953259
 10
156.6263047114
 20
-299.0561291345
 10
154.1179810569
 20
-304.6625832831
 10
151.8858440804
 20
-310.4226177928
 10
149.9369169107
 20
-316.3181094639
 10
148.2773315936
 20
-322.3305088986
 10
146.9123097985
 20
-328.4408988638
 10
145.8461463891
 20
-334.6300538121
 10
145.0821959099
 20
-340.8785003723
 10
144.6228620316
 20
-347.1665786197
 10
144.4695899887
 20
-353.4745039339
 10
144.6228620316
 20
-359.7824292481
 10
145.0821959099
 20
-366.0705074955
 10
145.8461463891
 20
-372.3189540557
 10
146.9123097985
 20
-378.508109004
 10
148.2773315936
 20
-384.6184989692
 10
149.9369169107
 20
-390.6308984038
 10
151.8858440804
 20
-396.5263900749
 10
154.1179810569
 20
-402.2864245846
 10
156.6263047114
 20
-407.8928787332
 10
159.4029229297
 20
-413.3281125419
 10
162.4390994437
 20
-418.5750247541
 10
165.7252813187
 20
-423.617106643
 10
169.2511290108
 20
-428.4384939535
 10
173.0055488987
 20
-433.0240168174
 10
176.9767281884
 20
-437.3592474832
 10
181.1521720808
 20
-441.4305457115
 10
185.5187430845
 20
-445.2251016918
 10
190.0627023518
 20
-448.7309763471
 10
194.7697529056
 20
-451.9371388986
 10
199.6250846234
 20
-454.8335015729
 10
204.6134208354
 20
-457.4109513414
 10
209.7190663904
 20
-459.6613785936
 10
214.9259570385
 20
-461.5777026527
 10
220.2177099754
 20
-463.1538940543
 10
225.5776753886
 20
-464.3849935172
 10
230.9889888439
 20
-465.2671275469
 10
236.4346243472
 20
-465.7975206234
 10
241.8974479144
 20
-465.9745039339
  0
ARC
  5
B1
330
1F
100
AcDbEntity
  8
0
  6
Continuous
 62
     7
370
    25
100
AcDbCircle
 10
141.9523991376
 20
-353.4745039339
 30
0.0
 40
112.5
100
AcDbArc
 50
90.0
 51
180.0
  0
ARC
  5
B2
330
1F
100
AcDbEntity
  8
0
  6
Continuous
 62
     7
370
    25
100
AcDbCircle
 10
141.9523991376
 20
-353.4745039339
 30
0.0
 40
112.5
100
AcDbArc
 50
180.0
 51
270.0
  0
LWPOLYLINE
  5
B3
330
1F
100
AcDbEntity
  8
0
  6
Continuous
 62
     7
370
    25
100
AcDbPolyline
 90
      102
 70
   128
 43
0.0
 10
241.8974479144
 20
-445.4745039339
 10
236.9441232613
 20
-445.2965388702
 10
232.0099620591
 20
-444.7633321913
 10
227.1140536187
 20
-443.8769467703
 10
222.275339259
 20
-442.6408118602
 10
217.5125390258
 20
-441.0597098269
 10
212.8440792678
 20
-439.1397576469
 10
208.288021349
 20
-436.8883832422
 10
203.8619917724
 20
-434.314296743
 10
199.5831139866
 20
-431.42745679
 10
195.4679421384
 20
-428.2390320061
 10
191.5323970284
 20
-424.7613577873
 10
187.7917045159
 20
-421.0078885797
 10
184.2603366137
 20
-416.9931458265
 10
180.9519554982
 20
-412.7326617873
 10
177.879360653
 20
-408.2429194473
 10
175.0544393509
 20
-403.5412887474
 10
172.4881206635
 20
-398.6459593834
 10
170.1903331793
 20
-393.5758704336
 10
168.1699665916
 20
-388.3506370872
 10
166.4348373064
 20
-382.9904747569
 10
164.9916582017
 20
-377.5161208695
 10
163.8460126571
 20
-371.9487546366
 10
163.0023329527
 20
-366.3099151167
 10
162.4638831214
 20
-360.6214178845
 10
162.2327463209
 20
-354.9052706305
 10
162.3098167746
 20
-349.1835880182
 10
162.6947963119
 20
-343.478506126
 10
163.3861955219
 20
-337.8120968074
 10
164.3813395151
 20
-332.2062822993
 10
165.6763782729
 20
-326.682750409
 10
167.266301542
 20
-321.2628706083
 10
169.1449582179
 20
-315.9676113592
 10
171.3050801431
 20
-310.8174589912
 10
173.7383102253
 20
-305.8323384432
 10
176.4352347703
 20
-301.0315361782
 10
179.3854199007
 20
-296.4336255675
 10
182.5774519235
 20
-292.056395034
 10
185.9989814868
 20
-287.9167792323
 10
189.6367713575
 20
-284.0307935318
 10
193.4767476332
 20
-280.4134720562
 10
197.5040541918
 20
-277.0788095195
 10
201.7031101666
 20
-274.0397070834
 10
206.0576702256
 20
-271.3079224447
 10
210.550887422
 20
-268.8940243475
 10
215.1653783714
 20
-266.8073516946
 10
219.8832905046
 20
-265.0559774172
 10
224.6863711363
 20
-263.646677242
 10
229.5560380804
 20
-262.5849034777
 10
234.4734515417
 20
-261.8747639207
 10
239.4195870027
 20
-261.519005963
 10
244.3753088262
 20
-261.519005963
 10
249.3214442872
 20
-261.8747639207
 10
254.2388577485
 20
-262.5849034777
 10
259.1085246926
 20
-263.646677242
 10
263.9116053243
 20
-265.0559774172
 10
268.6295174575
 20
-266.8073516946
 10
273.2440084069
 20
-268.8940243475
 10
277.7372256033
 20
-271.3079224447
 10
282.0917856623
 20
-274.0397070834
 10
286.2908416371
 20
-277.0788095195
 10
290.3181481957
 20
-280.4134720562
 10
294.1581244714
 20
-284.0307935318
 10
297.7959143421
 20
-287.9167792323
 10
301.2174439054
 20
-292.056395034
 10
304.4094759282
 20
-296.4336255675
 10
307.3596610586
 20
-301.0315361782
 10
310.0565856035
 20
-305.8323384432
 10
312.4898156858
 20
-310.8174589912
 10
314.649937611
 20
-315.9676113592
 10
316.5285942869
 20
-321.2628706083
 10
318.118517556
 20
-326.682750409
 10
319.4135563138
 20
-332.2062822993
 10
320.408700307
 20
-337.8120968074
 10
321.100099517
 20
-343.478506126
 10
321.4850790543
 20
-349.1835880182
 10
321.562149508
 20
-354.9052706305
 10
321.3310127075
 20
-360.6214178845
 10
320.7925628762
 20
-366.3099151167
 10
319.9488831718
 20
-371.9487546366
 10
318.8032376272
 20
-377.5161208695
 10
317.3600585225
 20
-382.9904747569
 10
315.6249292372
 20
-388.3506370872
 10
313.6045626496
 20
-393.5758704336
 10
311.3067751654
 20
-398.6459593834
 10
308.740456478
 20
-403.5412887474
 10
305.9155351759
 20
-408.2429194473
 10
302.8429403307
 20
-412.7326617873
 10
299.5345592151
 20
-416.9931458265
 10
296.0031913129
 20
-421.0078885797
 10
292.2624988005
 20
-424.7613577873
 10
288.3269536905
 20
-428.2390320061
 10
284.2117818423
 20
-431.42745679
 10
279.9329040565
 20
-434.314296743
 10
275.5068744799
 20
-436.8883832422
 10
270.9508165611
 20
-439.1397576469
 10
266.2823568031
 20
-441.0597098269
 10
261.5195565699
 20
-442.6408118602
 10
256.6808422101
 20
-443.8769467703
 10
251.7849337698
 20
-444.7633321913
 10
246.8507725675
 20
-445.2965388702
 10
241.8974479144
 20
-445.4745039339
  0
ARC
  5
B4
330
1F
100
AcDbEntity
  8
0
  6
Continuous
 62
     7
370
    25
100
AcDbCircle
 10
141.9523991376
 20
-353.4745039339
 30
0.0
 40
92.0
100
AcDbArc
 50
305.6038887026
 51
54.3961112974
  0
LINE
  5
B5
330
1F
100
AcDbEntity
  8
0
  6
Continuous
 62
     7
370
    25
100
AcDbLine
 10
451.6731377073
 20
-342.4900516985
 30
0.0
 11
451.6731377073
 21
-523.1132276035
 31
0.0
  0
LINE
  5
B6
330
1F
100
AcDbEntity
  8
0
  6
Continuous
 62
     7
370
    25
100
AcDbLine
 10
676.6731377073
 20
-523.1132276035
 30
0.0
 11
676.6731377073
 21
-377.2995584197
 31
0.0
  0
LINE
  5
B7
330
1F
100
AcDbEntity
  8
0
  6
Continuous
 62
     7
370
    25
100
AcDbLine
 10
529.9625653035
 20
-137.0523689098
 30
0.0
 11
452.9951485381
 21
-335.4278852722
 31
0.0
  0
LINE
  5
B8
330
1F
100
AcDbEntity
  8
0
  6
Continuous
 62
     7
370
    25
100
AcDbLine
 10
676.6731377073
 20
-380.9543793453
 30
0.0
 11
739.7273535833
 21
-218.4386920724
 31
0.0
  0
LWPOLYLINE
  5
B9
330
1F
100
AcDbEntity
  8
0
  6
Continuous
 62
     7
370
    25
100
AcDbPolyline
 90
      113
 70
   128
 43
0.0
 10
484.6236248238
 20
-477.1902713134
 10
489.2091476877
 20
-474.687595921
 10
494.0305349982
 20
-472.3372854815
 10
499.072616887
 20
-470.1467349413
 10
504.3195290993
 20
-468.1228365827
 10
509.7547629079
 20
-466.2719583387
 10
515.3612170565
 20
-464.5999237571
 10
521.1212515662
 20
-463.1119936773
 10
527.0167432373
 20
-461.8128496776
 10
533.029142672
 20
-460.7065793459
 10
539.1395326372
 20
-459.7966634179
 10
545.3286875855
 20
-459.0859648256
 10
551.5771341456
 20
-458.5767196899
 10
557.8652123931
 20
-458.2705302842
 10
564.1731377073
 20
-458.1683599938
 10
570.4810630214
 20
-458.2705302842
 10
576.7691412689
 20
-458.5767196899
 10
583.017587829
 20
-459.0859648256
 10
589.2067427773
 20
-459.7966634179
 10
595.3171327426
 20
-460.7065793459
 10
601.3295321772
 20
-461.8128496776
 10
607.2250238483
 20
-463.1119936773
 10
612.985058358
 20
-464.5999237571
 10
618.5915125066
 20
-466.2719583387
 10
624.0267463152
 20
-468.1228365827
 10
629.2736585275
 20
-470.1467349413
 10
634.3157404164
 20
-472.3372854815
 10
639.1371277269
 20
-474.687595921
 10
643.7226505907
 20
-477.1902713134
 10
648.0578812566
 20
-479.8374373162
 10
652.1291794849
 20
-482.6207649658
 10
655.9237354652
 20
-485.5314968836
 10
659.4296101204
 20
-488.5604748301
 10
662.635772672
 20
-491.6981685201
 10
665.5321353463
 20
-494.9347056085
 10
668.1095851148
 20
-498.2599027521
 10
670.360012367
 20
-501.6632976505
 10
672.2763364261
 20
-505.1341819643
 10
673.8525278277
 20
-508.6616350073
 10
675.0836272906
 20
-512.2345581071
 10
675.9657613202
 20
-515.8417095259
 10
676.4961543968
 20
-519.4717398308
 10
676.6731377073
 20
-523.1132276035
 10
676.4961543968
 20
-526.7547153761
 10
675.9657613202
 20
-530.384745681
 10
675.0836272906
 20
-533.9918970998
 10
673.8525278277
 20
-537.5648201996
 10
672.2763364261
 20
-541.0922732426
 10
670.360012367
 20
-544.5631575564
 10
668.1095851148
 20
-547.9665524548
 10
665.5321353463
 20
-551.2917495984
 10
662.635772672
 20
-554.5282866868
 10
659.4296101204
 20
-557.6659803768
 10
655.9237354652
 20
-560.6949583233
 10
652.1291794849
 20
-563.6056902411
 10
648.0578812566
 20
-566.3890178907
 10
643.7226505907
 20
-569.0361838935
 10
639.1371277269
 20
-571.5388592859
 10
634.3157404164
 20
-573.8891697254
 10
629.2736585275
 20
-576.0797202656
 10
624.0267463152
 20
-578.1036186242
 10
618.5915125066
 20
-579.9544968682
 10
612.985058358
 20
-581.6265314498
 10
607.2250238483
 20
-583.1144615296
 10
601.3295321772
 20
-584.4136055293
 10
595.3171327426
 20
-585.519875861
 10
589.2067427773
 20
-586.429791789
 10
583.017587829
 20
-587.1404903813
 10
576.7691412689
 20
-587.649735517
 10
570.4810630214
 20
-587.9559249227
 10
564.1731377073
 20
-588.0580952131
 10
557.8652123931
 20
-587.9559249227
 10
551.5771341456
 20
-587.649735517
 10
545.3286875855
 20
-587.1404903813
 10
539.1395326372
 20
-586.429791789
 10
533.029142672
 20
-585.519875861
 10
527.0167432373
 20
-584.4136055293
 10
521.1212515662
 20
-583.1144615296
 10
515.3612170565
 20
-581.6265314498
 10
509.7547629079
 20
-579.9544968682
 10
504.3195290993
 20
-578.1036186242
 10
499.072616887
 20
-576.0797202656
 10
494.0305349982
 20
-573.8891697254
 10
489.2091476877
 20
-571.5388592859
 10
484.6236248238
 20
-569.0361838935
 10
480.2883941579
 20
-566.3890178907
 10
476.2170959296
 20
-563.6056902411
 10
472.4225399493
 20
-560.6949583233
 10
468.9166652941
 20
-557.6659803768
 10
465.7105027425
 20
-554.5282866868
 10
462.8141400682
 20
-551.2917495984
 10
460.2366902997
 20
-547.9665524548
 10
457.9862630476
 20
-544.5631575564
 10
456.0699389884
 20
-541.0922732426
 10
454.4937475868
 20
-537.5648201996
 10
453.262648124
 20
-533.9918970998
 10
452.3805140943
 20
-530.384745681
 10
451.8501210178
 20
-526.7547153761
 10
451.6731377073
 20
-523.1132276034
 10
451.8501210178
 20
-519.4717398308
 10
452.3805140943
 20
-515.8417095259
 10
453.262648124
 20
-512.2345581071
 10
454.4937475868
 20
-508.6616350073
 10
456.0699389884
 20
-505.1341819643
 10
457.9862630476
 20
-501.6632976505
 10
460.2366902997
 20
-498.2599027521
 10
462.8141400682
 20
-494.9347056085
 10
465.7105027425
 20
-491.6981685201
 10
468.9166652941
 20
-488.5604748301
 10
472.4225399493
 20
-485.5314968836
 10
476.2170959296
 20
-482.6207649658
 10
480.2883941579
 20
-479.8374373162
 10
484.6236248238
 20
-477.1902713134
  0
LWPOLYLINE
  5
BA
330
1F
100
AcDbEntity
  8
0
  6
Continuous
 62
     7
370
    25
100
AcDbPolyline
 90
      102
 70
   128
 43
0.0
 10
499.1193138381
 20
-485.5584544596
 10
495.200781498
 20
-487.9658671506
 10
491.549089805
 20
-490.5092581512
 10
488.1783664448
 20
-493.1787875757
 10
485.1016520914
 20
-495.9641275335
 10
482.3308499549
 20
-498.8545020852
 10
479.8766797303
 20
-501.8387289332
 10
477.7486361257
 20
-504.9052626837
 10
475.9549521282
 20
-508.0422395133
 10
474.5025671528
 20
-511.2375230679
 10
473.3971001949
 20
-514.4787514164
 10
472.6428280913
 20
-517.7533848758
 10
472.2426689743
 20
-521.0487545255
 10
472.1981709817
 20
-524.3521112205
 10
472.5095062676
 20
-527.6506749155
 10
473.1754703364
 20
-530.9316841082
 10
474.1934867023
 20
-534.1824452117
 10
475.5596168579
 20
-537.3903816626
 10
477.268575511
 20
-540.543082578
 10
479.3137510325
 20
-543.6283507705
 10
481.6872310357
 20
-546.634249937
 10
484.3798329874
 20
-549.5491508374
 10
487.3811397339
 20
-552.3617762864
 10
490.6795398024
 20
-555.0612447826
 10
494.2622723238
 20
-557.6371126068
 10
498.115476402
 20
-560.0794142268
 10
502.2242447389
 20
-562.3787008521
 10
506.5726813081
 20
-564.5260769893
 10
511.1439628532
 20
-566.5132348575
 10
515.920403974
 20
-568.3324865287
 10
520.8835255477
 20
-569.9767936718
 10
526.014126221
 20
-571.4397947819
 10
531.2923566968
 20
-572.7158297918
 10
536.6977965267
 20
-573.7999619699
 10
542.209533114
 20
-574.6879970196
 10
547.8062426207
 20
-575.3764993057
 10
553.4662724649
 20
-575.8628051466
 10
559.1677250907
 20
-576.1450331196
 10
564.8885426856
 20
-576.2220913393
 10
570.6065925176
 20
-576.0936816825
 10
576.2997525627
 20
-575.7603009413
 10
581.9459970908
 20
-575.2232389009
 10
587.5234818786
 20
-574.4845733501
 10
593.010628721
 20
-573.5471620423
 10
598.3862089129
 20
-572.4146316399
 10
603.6294253787
 20
-571.0913636829
 10
608.7199931326
 20
-569.582477638
 10
613.6382177569
 20
-567.8938110921
 10
618.3650715958
 20
-566.0318971681
 10
622.8822673703
 20
-564.0039392493
 10
627.1723289274
 20
-561.8177831109
 10
631.2186588523
 20
-559.4818865662
 10
635.0056026806
 20
-557.0052867452
 10
638.5185094624
 20
-554.3975651315
 10
641.7437884438
 20
-551.6688104934
 10
644.6689616468
 20
-548.8295798526
 10
647.2827121448
 20
-545.8908576407
 10
649.5749278447
 20
-542.8640132032
 10
651.5367406093
 20
-539.7607568131
 10
653.1605605662
 20
-536.5930943665
 10
654.4401054714
 20
-533.3732809342
 10
655.3704250142
 20
-530.1137733487
 10
655.9479199691
 20
-526.8271820117
 10
656.1703561202
 20
-523.5262221066
 10
656.0368729053
 20
-520.223664406
 10
655.5479867451
 20
-516.9322858641
 10
654.705589045
 20
-513.664820185
 10
653.5129388782
 20
-510.4339085586
 10
651.9746503765
 20
-507.2520507545
 10
650.0966748792
 20
-504.1315567623
 10
647.8862779087
 20
-501.0844991671
 10
645.3520110615
 20
-498.1226664428
 10
642.5036789237
 20
-495.2575173447
 10
639.352301139
 20
-492.5001365782
 10
635.9100697758
 20
-489.8611919137
 10
632.1903021585
 20
-487.3508929155
 10
628.2073893455
 20
-484.9789514428
 10
623.9767404527
 20
-482.7545440763
 10
619.5147230387
 20
-480.686276616
 10
614.8385997821
 20
-478.7821507869
 10
609.9664616954
 20
-477.049533282
 10
604.9171581343
 20
-475.4951272617
 10
599.7102238735
 20
-474.124946421
 10
594.3658035299
 20
-472.9442917234
 10
588.9045736277
 20
-471.9577308925
 10
583.3476626044
 20
-471.1690807406
 10
577.7165690693
 20
-470.5813924018
 10
572.0330786293
 20
-470.1969395282
 10
566.3191796048
 20
-470.0172094933
 10
560.5969779611
 20
-470.0428976376
 10
554.8886117847
 20
-470.2739045788
 10
549.2161656355
 20
-470.7093365958
 10
543.6015851055
 20
-471.3475090867
 10
538.0665919162
 20
-472.1859530862
 10
532.6325998809
 20
-473.2214248173
 10
527.3206320592
 20
-474.449918241
 10
522.1512394225
 20
-475.866680555
 10
517.1444213469
 20
-477.4662305811
 10
512.3195482387
 20
-479.2423799709
 10
507.6952865947
 20
-481.1882571476
 10
503.2895267849
 20
-483.2963338902
 10
499.1193138381
 20
-485.5584544596
  0
ELLIPSE
  5
BB
330
1F
100
AcDbEntity
  8
0
  6
Continuous
 62
     7
370
    25
100
AcDbEllipse
 10
564.1731377073
 20
-359.8948050591
 30
0.0
 11
112.1690103850552
 21
-20.99761428276258
 31
0.0
210
0.0
220
0.0
230
1.0
 40
0.4106849769
 41
0.0767277489784146
 42
3.218320402568239
  0
LWPOLYLINE
  5
BC
330
1F
100
AcDbEntity
  8
0
  6
Continuous
 62
     7
370
    25
100
AcDbPolyline
 90
       46
 70
   128
 43
0.0
 10
555.2954465599
 20
-131.8225742011
 10
559.2833922477
 20
-132.2402119981
 10
563.509082581
 20
-132.8010263624
 10
567.9592219747
 20
-133.5032527645
 10
572.6198086438
 20
-134.3446817404
 10
577.4761786584
 20
-135.3226658433
 10
582.5130520817
 20
-136.4341279733
 10
587.7145810466
 20
-137.6755710594
 10
593.0643996184
 20
-139.0430890623
 10
598.5456752888
 20
-140.5323792645
 10
604.1411619365
 20
-142.138755808
 10
609.8332540906
 20
-143.8571644378
 10
615.6040423231
 20
-145.6821984048
 10
621.4353695993
 20
-147.6081154767
 10
627.3088884062
 20
-149.6288560061
 10
633.2061184807
 20
-151.7380619956
 10
639.1085049552
 20
-153.9290971028
 10
644.9974767382
 20
-156.1950675207
 10
650.8545049456
 20
-158.528843668
 10
656.6611612
 20
-160.9230826215
 10
662.3991756124
 20
-163.3702512197
 10
668.0504942666
 20
-165.8626497649
 10
673.5973360235
 20
-168.3924362491
 10
679.0222484666
 20
-170.951651028
 10
684.3081628145
 20
-173.5322418653
 10
689.4384476249
 20
-176.1260892673
 10
694.3969611238
 20
-178.7250320305
 10
699.1681019933
 20
-181.3208929196
 10
703.7368584591
 20
-183.9055043956
 10
708.0888555231
 20
-186.4707343148
 10
712.2104001923
 20
-189.0085115148
 10
716.0885245625
 20
-191.5108512095
 10
719.7110266197
 20
-193.9698801126
 10
723.066508632
 20
-196.3778612094
 10
726.1444130118
 20
-198.7272181004
 10
728.9350555331
 20
-201.0105588397
 10
731.4296558021
 20
-203.2206991926
 10
733.6203648835
 20
-205.3506852399
 10
735.500289996
 20
-207.3938152574
 10
737.0635161997
 20
-209.3436608022
 10
738.3051250066
 20
-211.1940869389
 10
739.2212098561
 20
-212.9392715422
 10
739.8088884062
 20
-214.5737236157
 10
740.066311603
 20
-216.0923005686
 10
739.9926694977
 20
-217.4902243958
 10
739.7273535833
 20
-218.4386920724
  0
LWPOLYLINE
  5
BD
330
1F
100
AcDbEntity
  8
0
  6
Continuous
 62
     7
370
    25
100
AcDbPolyline
 90
       13
 70
   128
 43
0.0
 10
529.9625653035
 20
-137.0523689098
 10
530.1017250911
 20
-136.7279642703
 10
530.8357617596
 20
-135.5841483925
 10
531.8970498438
 20
-134.5729878211
 10
533.2822501387
 20
-133.6976640412
 10
534.9870042916
 20
-132.9609311453
 10
537.0059485152
 20
-132.3651071676
 10
539.3327304643
 20
-131.9120667909
 10
541.9600292218
 20
-131.6032354477
 10
544.8795783339
 20
-131.4395848357
 10
548.0821918189
 20
-131.4216298603
 10
551.55779307
 20
-131.5494270145
 10
555.2954465599
 20
-131.8225742011
  0
ENDSEC
  0
SECTION
  2
OBJECTS
  0
DICTIONARY
  5
C
330
0
100
AcDbDictionary
281
     1
  3
ACAD_GROUP
350
D
  3
ACAD_LAYOUT
350
1A
  3
ACAD_MLINESTYLE
350
17
  3
ACAD_PLOTSETTINGS
350
19
  3
ACAD_PLOTSTYLENAME
350
E
  3
ACAD_SCALELIST
350
47
  3
DWGPROPS
350
BE
  0
DICTIONARY
  5
D
102
{ACAD_REACTORS
330
C
102
}
330
C
100
AcDbDictionary
281
     1
  0
DICTIONARY
  5
1A
102
{ACAD_REACTORS
330
C
102
}
330
C
100
AcDbDictionary
281
     1
  3
Layout1
350
1E
  3
Layout2
350
26
  3
Model
350
22
  0
DICTIONARY
  5
17
102
{ACAD_REACTORS
330
C
102
}
330
C
100
AcDbDictionary
281
     1
  3
Standard
350
18
  0
DICTIONARY
  5
19
102
{ACAD_REACTORS
330
C
102
}
330
C
100
AcDbDictionary
281
     1
  0
ACDBDICTIONARYWDFLT
  5
E
102
{ACAD_REACTORS
330
C
102
}
330
C
100
AcDbDictionary
281
     1
  3
Normal
350
F
100
AcDbDictionaryWithDefault
340
F
  0
DICTIONARY
  5
47
102
{ACAD_REACTORS
330
C
102
}
330
C
100
AcDbDictionary
281
     1
  3
A0
350
48
  3
A1
350
49
  3
A2
350
4A
  3
A3
350
4B
  3
A4
350
4C
  3
A5
350
4D
  3
A6
350
4E
  3
A7
350
4F
  3
A8
350
50
  3
A9
350
51
  3
B0
350
52
  3
B1
350
53
  3
B2
350
54
  3
B3
350
55
  3
B4
350
56
  3
B5
350
57
  3
B6
350
58
  3
B7
350
59
  3
B8
350
5A
  3
B9
350
5B
  3
C0
350
5C
  3
C1
350
5D
  3
C2
350
5E
  3
C3
350
5F
  3
C4
350
60
  3
C5
350
61
  3
C6
350
62
  3
C7
350
63
  3
C8
350
64
  3
C9
350
65
  3
D0
350
66
  3
D1
350
67
  3
D2
350
68
  0
XRECORD
  5
BE
102
{ACAD_REACTORS
330
C
102
}
330
C
100
AcDbXrecord
280
     1
  1
DWGPROPS COOKIE
  2

  3

  4

  6

  7

  8
b.kav
  9

300
=
301
=
302
=
303
=
304
=
305
=
306
=
307
=
308
=
309
=
 40
0.0
 41
2460682.394589016
 42
2460682.394589178
  1

 90
        0
  0
LAYOUT
  5
1E
102
{ACAD_REACTORS
330
1A
102
}
330
1A
100
AcDbPlotSettings
  1

  2
none_device
  4

  6

 40
0.0
 41
0.0
 42
0.0
 43
0.0
 44
0.0
 45
0.0
 46
0.0
 47
0.0
 48
0.0
 49
0.0
140
0.0
141
0.0
142
1.0
143
1.0
 70
   688
 72
     1
 73
     0
 74
     5
  7

 75
    16
147
1.0
148
0.0
149
0.0
100
AcDbLayout
  1
Layout1
 70
     1
 71
     1
 10
0.0
 20
0.0
 11
420.0
 21
297.0
 12
0.0
 22
0.0
 32
0.0
 14
1.0000000000E+20
 24
1.0000000000E+20
 34
1.0000000000E+20
 15
-1.0000000000E+20
 25
-1.0000000000E+20
 35
-1.0000000000E+20
146
0.0
 13
0.0
 23
0.0
 33
0.0
 16
1.0
 26
0.0
 36
0.0
 17
0.0
 27
1.0
 37
0.0
 76
     0
330
1B
  0
LAYOUT
  5
26
102
{ACAD_REACTORS
330
1A
102
}
330
1A
100
AcDbPlotSettings
  1

  2
none_device
  4

  6

 40
0.0
 41
0.0
 42
0.0
 43
0.0
 44
0.0
 45
0.0
 46
0.0
 47
0.0
 48
0.0
 49
0.0
140
0.0
141
0.0
142
1.0
143
1.0
 70
   688
 72
     1
 73
     0
 74
     5
  7

 75
    16
147
1.0
148
0.0
149
0.0
100
AcDbLayout
  1
Layout2
 70
     1
 71
     2
 10
0.0
 20
0.0
 11
0.0
 21
0.0
 12
0.0
 22
0.0
 32
0.0
 14
0.0
 24
0.0
 34
0.0
 15
0.0
 25
0.0
 35
0.0
146
0.0
 13
0.0
 23
0.0
 33
0.0
 16
1.0
 26
0.0
 36
0.0
 17
0.0
 27
1.0
 37
0.0
 76
     0
330
23
  0
LAYOUT
  5
22
102
{ACAD_REACTORS
330
1A
102
}
330
1A
100
AcDbPlotSettings
  1

  2
none_device
  4
Letter_(8.50_x_11.00_Inches)
  6

 40
6.35
 41
6.35
 42
6.35000508
 43
6.35000508
 44
215.9
 45
279.4
 46
0.0
 47
0.0
 48
0.0
 49
0.0
140
0.0
141
0.0
142
1.0
143
1.0
 70
  1712
 72
     1
 73
     0
 74
     0
  7

 75
     0
147
1.0
148
0.0
149
0.0
100
AcDbLayout
  1
Model
 70
     1
 71
     0
 10
0.0
 20
0.0
 11
279.4
 21
215.9
 12
0.0
 22
0.0
 32
0.0
 14
0.0
 24
0.0
 34
0.0
 15
279.4
 25
215.9
 35
0.0
146
0.0
 13
0.0
 23
0.0
 33
0.0
 16
1.0
 26
0.0
 36
0.0
 17
0.0
 27
1.0
 37
0.0
 76
     0
330
1F
331
29
  0
MLINESTYLE
  5
18
102
{ACAD_REACTORS
330
17
102
}
330
17
100
AcDbMlineStyle
  2
Standard
 70
     0
  3

 62
   256
 51
90.0
 52
90.0
 71
     2
 49
0.5
 62
   256
  6
BYLAYER
 49
-0.5
 62
   256
  6
BYLAYER
  0
ACDBPLACEHOLDER
  5
F
102
{ACAD_REACTORS
330
E
102
}
330
E
  0
SCALE
  5
48
102
{ACAD_REACTORS
330
47
102
}
330
47
100
AcDbScale
 70
     0
300
1:1
140
1.0
141
1.0
290
     1
  0
SCALE
  5
49
102
{ACAD_REACTORS
330
47
102
}
330
47
100
AcDbScale
 70
     0
300
1:2
140
1.0
141
2.0
290
     0
  0
SCALE
  5
4A
102
{ACAD_REACTORS
330
47
102
}
330
47
100
AcDbScale
 70
     0
300
1:4
140
1.0
141
4.0
290
     0
  0
SCALE
  5
4B
102
{ACAD_REACTORS
330
47
102
}
330
47
100
AcDbScale
 70
     0
300
1:5
140
1.0
141
5.0
290
     0
  0
SCALE
  5
4C
102
{ACAD_REACTORS
330
47
102
}
330
47
100
AcDbScale
 70
     0
300
1:8
140
1.0
141
8.0
290
     0
  0
SCALE
  5
4D
102
{ACAD_REACTORS
330
47
102
}
330
47
100
AcDbScale
 70
     0
300
1:10
140
1.0
141
10.0
290
     0
  0
SCALE
  5
4E
102
{ACAD_REACTORS
330
47
102
}
330
47
100
AcDbScale
 70
     0
300
1:16
140
1.0
141
16.0
290
     0
  0
SCALE
  5
4F
102
{ACAD_REACTORS
330
47
102
}
330
47
100
AcDbScale
 70
     0
300
1:20
140
1.0
141
20.0
290
     0
  0
SCALE
  5
50
102
{ACAD_REACTORS
330
47
102
}
330
47
100
AcDbScale
 70
     0
300
1:30
140
1.0
141
30.0
290
     0
  0
SCALE
  5
51
102
{ACAD_REACTORS
330
47
102
}
330
47
100
AcDbScale
 70
     0
300
1:40
140
1.0
141
40.0
290
     0
  0
SCALE
  5
52
102
{ACAD_REACTORS
330
47
102
}
330
47
100
AcDbScale
 70
     0
300
1:50
140
1.0
141
50.0
290
     0
  0
SCALE
  5
53
102
{ACAD_REACTORS
330
47
102
}
330
47
100
AcDbScale
 70
     0
300
1:100
140
1.0
141
100.0
290
     0
  0
SCALE
  5
54
102
{ACAD_REACTORS
330
47
102
}
330
47
100
AcDbScale
 70
     0
300
2:1
140
2.0
141
1.0
290
     0
  0
SCALE
  5
55
102
{ACAD_REACTORS
330
47
102
}
330
47
100
AcDbScale
 70
     0
300
4:1
140
4.0
141
1.0
290
     0
  0
SCALE
  5
56
102
{ACAD_REACTORS
330
47
102
}
330
47
100
AcDbScale
 70
     0
300
8:1
140
8.0
141
1.0
290
     0
  0
SCALE
  5
57
102
{ACAD_REACTORS
330
47
102
}
330
47
100
AcDbScale
 70
     0
300
10:1
140
10.0
141
1.0
290
     0
  0
SCALE
  5
58
102
{ACAD_REACTORS
330
47
102
}
330
47
100
AcDbScale
 70
     0
300
100:1
140
100.0
141
1.0
290
     0
  0
SCALE
  5
59
102
{ACAD_REACTORS
330
47
102
}
330
47
100
AcDbScale
 70
     0
300
1/128" = 1'-0"
140
0.0078125
141
12.0
290
     0
  0
SCALE
  5
5A
102
{ACAD_REACTORS
330
47
102
}
330
47
100
AcDbScale
 70
     0
300
1/64" = 1'-0"
140
0.015625
141
12.0
290
     0
  0
SCALE
  5
5B
102
{ACAD_REACTORS
330
47
102
}
330
47
100
AcDbScale
 70
     0
300
1/32" = 1'-0"
140
0.03125
141
12.0
290
     0
  0
SCALE
  5
5C
102
{ACAD_REACTORS
330
47
102
}
330
47
100
AcDbScale
 70
     0
300
1/16" = 1'-0"
140
0.0625
141
12.0
290
     0
  0
SCALE
  5
5D
102
{ACAD_REACTORS
330
47
102
}
330
47
100
AcDbScale
 70
     0
300
3/32" = 1'-0"
140
0.09375
141
12.0
290
     0
  0
SCALE
  5
5E
102
{ACAD_REACTORS
330
47
102
}
330
47
100
AcDbScale
 70
     0
300
1/8" = 1'-0"
140
0.125
141
12.0
290
     0
  0
SCALE
  5
5F
102
{ACAD_REACTORS
330
47
102
}
330
47
100
AcDbScale
 70
     0
300
3/16" = 1'-0"
140
0.1875
141
12.0
290
     0
  0
SCALE
  5
60
102
{ACAD_REACTORS
330
47
102
}
330
47
100
AcDbScale
 70
     0
300
1/4" = 1'-0"
140
0.25
141
12.0
290
     0
  0
SCALE
  5
61
102
{ACAD_REACTORS
330
47
102
}
330
47
100
AcDbScale
 70
     0
300
3/8" = 1'-0"
140
0.375
141
12.0
290
     0
  0
SCALE
  5
62
102
{ACAD_REACTORS
330
47
102
}
330
47
100
AcDbScale
 70
     0
300
1/2" = 1'-0"
140
0.5
141
12.0
290
     0
  0
SCALE
  5
63
102
{ACAD_REACTORS
330
47
102
}
330
47
100
AcDbScale
 70
     0
300
3/4" = 1'-0"
140
0.75
141
12.0
290
     0
  0
SCALE
  5
64
102
{ACAD_REACTORS
330
47
102
}
330
47
100
AcDbScale
 70
     0
300
1" = 1'-0"
140
1.0
141
12.0
290
     0
  0
SCALE
  5
65
102
{ACAD_REACTORS
330
47
102
}
330
47
100
AcDbScale
 70
     0
300
1-1/2" = 1'-0"
140
1.5
141
12.0
290
     0
  0
SCALE
  5
66
102
{ACAD_REACTORS
330
47
102
}
330
47
100
AcDbScale
 70
     0
300
3" = 1'-0"
140
3.0
141
12.0
290
     0
  0
SCALE
  5
67
102
{ACAD_REACTORS
330
47
102
}
330
47
100
AcDbScale
 70
     0
300
6" = 1'-0"
140
6.0
141
12.0
290
     0
  0
SCALE
  5
68
102
{ACAD_REACTORS
330
47
102
}
330
47
100
AcDbScale
 70
     0
300
1'-0" = 1'-0"
140
12.0
141
12.0
290
     0
  0
ENDSEC
  0
EOF
